.-----.   .----.   .-----.  .-----.         .---. .---.           .----.    .-----.   
/ ,-.   \ /  ..  \ / ,-.   \/ ,-.   \  .-') /_   |/_   |   .-')   /  ..  \  /  .-.  \  
'-'  |  |.  /  \  .'-'  |  |'-'  |  |_(  OO) |   | |   | _(  OO) .  /  \  .|   \_.' /  
   .'  / |  |  '  |   .'  /    .'  /(,------.|   | |   |(,------.|  |  '  | /  .-. '.  
 .'  /__ '  \  /  ' .'  /__  .'  /__ '------'|   | |   | '------''  \  /  '|  |   |  | 
|       | \  `'  / |       ||       |        |   | |   |          \  `'  /  \  '-'  /  
`-------'  `---''  `-------'`-------'        `---' `---'           `---''    `----''   

100days of guitar day 58

Lick of the Day

e|-----------------|15--13-----------|-----------------|-----------------|
B|-------15-13-----|-------15-13-----|-----------------|-----------------|
G|-12-15-----------|-----------------|15 12------------|-----------------|
D|-----------------|-----------------|-----------------|-----------------|
A|-----------------|-----------------|-----------------|-----------------|
E|-----------------|-----------------|-----------------|-----------------|

100days of guitar day 59

Lick of the Day

e|-----------------|-----------------|-----------------|-----------------|
B|-----------------|-----------------|-----------------|-----------------|
G|-----------------|-----------------|-----------------|-----------------|
D|----3------------|----3------------|----3------------|-----------------|
A|--5---5-3--------|--5---5-3--------|--5---5-3--------|-----------------|
E|3---------6------|3----------------|3---------6-3----|-----------------|

Practice

started working on the outro to November Rain, and got an Arpeggio book to start working through.

👈 Prev Day - Home - Next Day 👉